Il Forum Ufficiale Di Tornei Italiani + molto altro ancora...

Moduli Pes4 By Sagiptar - Sacchiptar!

  • Posts
  • OFFLINE
    sagiptar
    Post: 3,635
    Registered in: 3/20/2004
    Location: LECCE
    Age: 39
    Gender: Male
    Master User
    00 1/19/2005 7:16 PM
    Eccomi nuovamente qui,a distanza di qualche mese dall'uscita di pes4 credo di aver trovato i giusti equilibri anche in questa edizione; il primo modulo che posterò è il mio preferito,cmq di seguito posterò anche differenti moduli da me provati in pes4 in questi mesi (molti sembrano simili ai default,ma per me in un modulo sono fondamentali i settaggi,i comportamenti offensivi/difensivi e le strategie).

    "MODULO 4-2-1-3"

    Si parte dal 4-3-3-B di base:

    --------------1---------------
    -------------------------------
    -------------------------------
    -----------2------3-----------
    -----4------------------5-----
    -------------------------------
    ----------7-------6-----------
    -------------------------------
    --------------8---------------
    -------------------------------
    -------------------------------
    ----------9--10--11-----------
    -------------------------------


    Ora,da questo modulo di base,bisogna fare alcuni passaggi (il modulo devi immaginarlo da sinistra verso destra,cioè in orizzontale,quindi quando proverai a crearlo devi giocare con il player 1 alla sinsitra dello schermo):

    2(MCA): 1 posizione a sinistra,1 in su.
    3(DCA): 1 posizione a sinistra,1 in giù.
    4(MCA) : 1 posizione a sinistra,1 in su.
    5(MCA) : 1 posizione a sinistra,1 in giù.
    6(CAR): La posizione deafult resta invariata.
    7(CAR): La posizione default resta invariata.
    8(CM) : 1 posizione a destra.
    11(AS): 2 posizioni in su.
    10(CA): La posizione deafult resta invariata.
    9(AD) : 2 posizioni in giù.

    Diventa cosi:

    --------------1---------------
    -------------------------------
    ------------2----3-------------
    ------4----------------5------
    ------------------------------
    -------------------------------
    ----------7-------6-----------
    -------------------------------
    ------------------------------
    --------------8----------------
    -------------------------------
    --------9----10----11---------
    -------------------------------

    COMPORTAMENTO OFFENSIVO + POSIZIONI:

    ---------------PT(I)---------------
    ------------------------------------
    ----------MCA(I)--MCA(I)--------
    ------MCA(\I)--------MCA(I/)-----
    ------------------------------------
    ------------------------------------
    ---------CAR(a)--CAR(a)--------
    ------------------------------------
    ------------------------------------
    --------------CM(a)---------------
    ------------------------------------
    -------AD(n)--CA(n)--AS(n)----------
    ------------------------------------

    Legenda:
    I: Indietro.
    a: Avanti.
    n: Nessuna freccia offensiva.
    \: Per mca destro: diagonale destro indietro.
    /: Per mca sinistro: diagonale sinistro indietro.

    COMPORTAMENTO DIFENSIVO:
    Portiere,Difensori e car: Freccia Lunga.
    Cm: Freccia normale.
    Attaccanti: Freccia normale.

    LIV ATT./DIF: Manuale
    STRATEGIA DIFESA: Difesa con Libero (Il DCA "3")
    STRATEGIA SQUADRA:Linea arretrata:B;Pressing a Zona:A;Trap.Fuorigioco:B;Contropiede:A.
    IMP.TATTICA: SEMIAUTOMATICHE - 4 Pressing a Zonza.


    ----------------------------------------------------------------

    "MODULO 4-1-2-1-2"

    Si parte dal 4-4-2-A di base:

    --------------1---------------
    -------------------------------
    -------------------------------
    -----------2------3-----------
    -----4------------------5-----
    -------------------------------
    --------------6---------------
    -------------------------------
    -------7------------8----------
    -------------------------------
    --------------9----------------
    ------------------------------
    ----------10-----11-----------
    ------------------------------

    Ora,da questo modulo di base,bisogna fare alcuni passaggi (il modulo devi immaginarlo da sinistra verso destra,cioè in orizzontale,quindi quando proverai a crearlo devi giocare con il player 1 alla sinsitra dello schermo):

    2(MCA): 1 posizione a sinistra,1 in su.
    3(DCA): 1 posizione a sinistra,1 in giù.
    4(MCA): 1 posizione a sinistra,1 in su.
    5(MCA): 1 posizione a sinistra,1 in giù.
    6(CAR): La posizione deafult resta invariata.
    7(CFD): 3 posizioni in su.
    8(CFS): 3 posizioni in giù.
    9(CAV): La posizione deafult resta invariata.
    10(CA): 2 posizioni a sinistra.
    11(AD) : La posizione deafult resta invariata.

    Diventa così:

    --------------1---------------
    -------------------------------
    -------------------------------
    -----------2------3-----------
    -----4------------------5-----
    -------------------------------
    --------------6---------------
    -------------------------------
    ----------7-------8----------
    ---------------------------------
    --------------9----------------
    ---------------------------------
    ----------10------------------
    -----------------11---------------
    ----------------------------------

    COMPORTAMENTO OFFENSIVO + POSIZIONI:

    ---------------PT(I)---------------
    ------------------------------------
    ----------MCA(I)--MCA(I)--------
    ------MCA(\I)--------MCA(I/)-----
    ------------------------------------
    --------------CAR(\/)---------------
    ------------------------------------
    --------CFD(/a)----CFS(a\)----------
    ------------------------------------
    --------------CAV(/\)----------------
    -------------------------------------
    -----------CA(a\)--------------------
    -------------------CA(/a)-------------
    --------------------------------------

    Legenda:
    I: Indietro.
    a: Avanti.
    \: Per Mca destro e Car: diagonale destro indietro; per Cfs, Cav e Ca destro: diagonale sinistro in avanti.
    /: Per mca sinistro e Car: diagonale sinistro indietro; per Cfd, Cav e Ca sinistro: diagonale sdestro in avanti.


    COMPORTAMENTO DIFENSIVO:
    Portiere,Difensori,Car,Cfs,Cfd: Freccia Lunga.
    CAV: Freccia normale.
    Attaccanti: Freccia corta.

    LIV ATT./DIF: Manuale
    STRATEGIA DIFESA: Difesa con Libero (Il DCA "3")
    STRATEGIA SQUADRA:Linea arretrata:B;Pressing a Zona:A;Trap.Fuorigioco:B;Contropiede:A.
    IMP.TATTICA: SEMIAUTOMATICHE - 4 Pressing a Zonza.


    ----------------------------------------------------------------

    "MODULO 4-1-1-4"

    Si parte dal 4-4-2-A di base:

    --------------1---------------
    -------------------------------
    -------------------------------
    -----------2------3-----------
    -----4------------------5-----
    -------------------------------
    --------------6---------------
    -------------------------------
    -------7------------8----------
    -------------------------------
    --------------9----------------
    ------------------------------
    ----------10-----11-----------
    ------------------------------

    Ora,da questo modulo di base,bisogna fare alcuni passaggi (il modulo devi immaginarlo da sinistra verso destra,cioè in orizzontale,quindi quando proverai a crearlo devi giocare con il player 1 alla sinsitra dello schermo):

    2(MCA): 1 posizione a sinistra,1 in su.
    3(DCA): 1 posizione a sinistra,1 in giù.
    4(MCA): 1 posizione a sinistra,1 in su.
    5(MCA): 1 posizione a sinistra,1 in giù.
    6(CAR): La posizione deafult resta invariata.
    7(AD): 21 posizioni a destra, 12 in giù (estrema destra inferiore)
    8(AS): 21 posizioni a sinistra, 12 in su. (estrema sinistra superiore)
    9(CM): 3 posizioni a sinistra.
    10(CA): 2 posizioni a sinistra.
    11(CA) : La posizione deafult resta invariata.

    Diventa così:

    --------------1---------------
    -------------------------------
    -------------------------------
    -----------2------3-----------
    -----4------------------5-----
    -------------------------------
    --------------6---------------
    -------------------------------
    -------------------------------
    --------------9--------------
    -------------------------------
    --------------------------------
    ----------10------------------
    -----------------11----------
    ------------------------------
    7---------------------------8

    COMPORTAMENTO OFFENSIVO + POSIZIONI:

    ---------------PT(I)---------------
    ------------------------------------
    ----------MCA(I)--MCA(I)--------
    ------MCA(\I)--------MCA(I/)---
    ------------------------------------
    --------------CAR(\/)------------
    ------------------------------------
    -----------------------------------
    ---------------CM(a)--------------
    -----------------------------------
    -----------------------------------
    ----------CA(a\)------------------
    -----------------CA(/a)----------
    AD(/)-----------------------AS(\)

    Legenda:
    I: Indietro.
    a: Avanti.
    \: Per Mca destro e Car: diagonale destro indietro; per AS e Ca destro: diagonale sinistro in avanti.
    /: Per mca sinistro e Car: diagonale sinistro indietro; per Ad e Ca sinistro: diagonale destro in avanti.


    COMPORTAMENTO DIFENSIVO:
    Portiere,Difensori,Car: Freccia Lunga.
    CM: Freccia normale.
    Attaccanti: Freccia corta.

    LIV ATT./DIF: Manuale
    STRATEGIA DIFESA: Difesa con Libero (Il DCA "3")
    STRATEGIA SQUADRA:Linea arretrata:B;Pressing a Zona:A;Trap.Fuorigioco:B;Contropiede:A.
    IMP.TATTICA: SEMIAUTOMATICHE - 3 Pressing a Zonza + Contropiede.


    ----------------------------------------------------------------

    "MODULO 5-1-2-2"

    Si parte dal 5-3-2-A di base:

    --------------1---------------
    -------------------------------
    -------------------------------
    ----------5---4---3-----------
    ----6-------------------2-----
    -------------------------------
    --------------7---------------
    -------------------------------
    -------------------------------
    -----------8-----9-------------
    -------------------------------
    -------------------------------
    ----------10-----11----------
    ------------------------------

    Ora,da questo modulo di base,bisogna fare alcuni passaggi (il modulo devi immaginarlo da sinistra verso destra,cioè in orizzontale,quindi quando proverai a crearlo devi giocare con il player 1 alla sinsitra dello schermo):

    3(MCA): 6 posizione in giù.
    4(DCA): 3 posizioni a destra.
    5(MCA): 6 posizioni in su.
    6(MCA): 1 posizione a sinistra,1 in su.
    2(TS) : 1 posizione a sinistra,1 in giù.
    7(CAR): La posizione default resta invariata.
    8(CM) : 5 posizioni a sinistra,4 in giù.
    9(CAV): 1 posizione a sinistra.
    10(CA): 2 posizioni a sinistra.
    11(CA): 4 posizioni a destra.

    Diventa così:

    --------------1---------------
    -------------------------------
    -----------5-----3-------------
    -----6-----------------2------
    --------------4----------------
    -------------------------------
    --------------7---------------
    ------------------------------
    --------8--------------------
    -------------------9----------
    ---------------------------------
    ----------10-------------------
    -------------------------------
    ------------------11-----------

    COMPORTAMENTO OFFENSIVO + POSIZIONI:

    ---------------PT(I)---------------
    ------------------------------------
    ----------MCA(I)--MCA(I)--------
    ------MCA(\I)----------TS(n)----
    --------------DCA(I)------------
    ------------------------------------
    --------------CAR(\/)------------
    ------------------------------------
    --------CM(a\)-------------------
    -------------------CAV(/\)-------
    ----------------------------------
    ----------CA(a\)-----------------
    ----------------------------------
    ------------------CA(/a)---------

    Legenda:
    I: Indietro.
    a: Avanti.
    n: Nessuna freccia offensiva.
    \: Per Mca destro e Car: diagonale destro indietro; per Cav, Cm e Ca destro: diagonale sinistro in avanti.
    /: Per mca sinistro e Car: diagonale sinistro indietro; per Cav, Cm e Ca sinistro: diagonale destro in avanti.


    COMPORTAMENTO DIFENSIVO:
    Portiere,Difensori,Car: Freccia Lunga.
    Cm e Cav: Freccia normale.
    Attaccanti: Freccia corta.

    LIV ATT./DIF: Manuale
    STRATEGIA DIFESA: Difesa con Libero (Il DCA "4")
    STRATEGIA SQUADRA:Linea arretrata:B;Pressing a Zona:A;Trap.Fuorigioco:B;Contropiede:A.
    IMP.TATTICA: SEMIAUTOMATICHE - 3 Pressing a Zonza + Contropiede.


    ----------------------------------------------------------------

    "MODULO 3-1-3-1-2-A"

    Si parte dal 3-5-2-B di base:

    --------------1---------------
    -------------------------------
    -------------------------------
    ---------2----4----3-----------
    -------------------------------
    -------------------------------
    -----------5-----6-------------
    -------------------------------
    ------7----------------8------
    -------------------------------
    --------------9----------------
    -------------------------------
    ----------10-----11----------
    ------------------------------

    Ora,da questo modulo di base,bisogna fare alcuni passaggi (il modulo devi immaginarlo da sinistra verso destra,cioè in orizzontale,quindi quando proverai a crearlo devi giocare con il player 1 alla sinsitra dello schermo):

    3(DCA): La posizione default resta invariata.
    4(MCA): 2 posizioni a destra.
    2(MCA): 2 posizioni a destra.
    5(CAR): 4 posizioni in su.
    6(CM) : 5 posizioni in giù, 7 a destra.
    8(CFS) : 4 posizioni in su.
    7(CFD): 4 posizioni in giù.
    9(CAV): La posizione default resta invariata.
    10(CA): 2 posizioni a sinistra.
    11(CA): La posizione default resta invariata.

    Diventa così:

    --------------1---------------
    -------------------------------
    --------------3----------------
    ----------2-------4-------------
    -------------------------------
    --------------5---------------
    ------------------------------
    --------------6---------------
    ----7-------------------8-----
    ---------------------------------
    --------------9----------------
    ---------10-------------------
    ------------------11-----------
    -------------------------------

    COMPORTAMENTO OFFENSIVO + POSIZIONI:

    ---------------PT(I)---------------
    -------------------------------
    --------------DCA(I)--------------
    ---------MCA(I)---MCA(I)----------
    -------------------------------
    -------------CAR(\/)--------------
    ----------------------------------
    --------------CM(n)--------------
    --CFD(Ia)---------------CFS(Ia)---
    ---------------------------------
    --------------CAV(/\)----------------
    -------------------------------------
    -----------CA(a\)--------------------
    -------------------CA(/a)-------------
    --------------------------------------


    Legenda:
    I: Indietro.
    a: Avanti.
    n: Nessuna freccia offensiva.
    \: Per Car: diagonale destro indietro; per Cav e Ca destro: diagonale sinistro in avanti.
    /: Per Car: diagonale sinistro indietro; per Cav e Ca sinistro: diagonale destro in avanti.


    COMPORTAMENTO DIFENSIVO:
    Portiere,Difensori,Car,Cfs,Cfd,Cm: Freccia Lunga.
    Cav: Freccia normale.
    Attaccanti: Freccia corta.

    LIV ATT./DIF: Manuale
    STRATEGIA DIFESA: Difesa con Libero (Il DCA "3")
    STRATEGIA SQUADRA:Linea arretrata:B;Pressing a Zona:A;Trap.Fuorigioco:B;Contropiede:A.
    IMP.TATTICA: SEMIAUTOMATICHE - 4 Pressing a Zona.


    ----------------------------------------------------------------

    "MODULO 3-1-3-1-2-B"

    Si parte dal 3-5-2-B di base:

    --------------1---------------
    -------------------------------
    -------------------------------
    ---------2----4----3-----------
    -------------------------------
    -------------------------------
    -----------5-----6-------------
    -------------------------------
    ------7----------------8------
    -------------------------------
    --------------9----------------
    -------------------------------
    ----------10-----11----------
    ------------------------------

    Ora,da questo modulo di base,bisogna fare alcuni passaggi (il modulo devi immaginarlo da sinistra verso destra,cioè in orizzontale,quindi quando proverai a crearlo devi giocare con il player 1 alla sinsitra dello schermo):

    3(MCA): 2 posizioni a sinistra.
    4(MCA): 2 posizioni a sinistra.
    2(MCA): 2 posizioni a sinistra.
    5(CAR): 4 posizioni in su.
    6(CM) : 5 posizioni in giù, 7 a destra.
    8(CFS) : 4 posizioni in su.
    7(CFD): 4 posizioni in giù.
    9(CAV): La posizione default resta invariata.
    10(CA): 2 posizioni a sinistra.
    11(CA): La posizione default resta invariata.

    Diventa così:

    --------------1---------------
    -------------------------------
    ----------2---3---4-------------
    --------------------------------
    -------------------------------
    --------------5---------------
    ------------------------------
    --------------6---------------
    ----7-------------------8-----
    ---------------------------------
    --------------9----------------
    ---------10-------------------
    ------------------11-----------
    -------------------------------

    COMPORTAMENTO OFFENSIVO + POSIZIONI:

    ---------------PT(I)---------------
    -------------------------------
    -------MCA(I)-MCA(I)-MCA(I)-------
    -------------------------------
    -------------CAR(\/)--------------
    ----------------------------------
    --------------CM(n)--------------
    --CFD(Ia)---------------CFS(Ia)---
    ---------------------------------
    --------------CAV(/\)----------------
    -------------------------------------
    -----------CA(a\)--------------------
    -------------------CA(/a)-------------
    --------------------------------------


    Legenda:
    I: Indietro.
    a: Avanti.
    n: Nessuna freccia offensiva.
    \: Per Car: diagonale destro indietro; per Cav e Ca destro: diagonale sinistro in avanti.
    /: Per Car: diagonale sinistro indietro; per Cav e Ca sinistro: diagonale destro in avanti.


    COMPORTAMENTO DIFENSIVO:
    Portiere,Difensori,Car,Cfs,Cfd,Cm: Freccia Lunga.
    Cav: Freccia normale.
    Attaccanti: Freccia corta.

    LIV ATT./DIF: Manuale
    STRATEGIA DIFESA: Difesa in Linea
    STRATEGIA SQUADRA:Linea arretrata:A;Pressing a Zona:C;Trap.Fuorigioco:A;Contropiede:A.
    IMP.TATTICA: MANUALI: Contropiede.


    ----------------------------------------------------------------

    "MODULO 4-2-1-3"

    Si parte dal 4-3-3-A di base:

    --------------1---------------
    -------------------------------
    -------------------------------
    -----------2------3-----------
    -----4------------------5-----
    -------------------------------
    --------------6---------------
    -------------------------------
    -----------7------8------------
    -------------------------------
    -------------------------------
    ----------9--10--11-----------
    -------------------------------


    Ora,da questo modulo di base,bisogna fare alcuni passaggi (il modulo devi immaginarlo da sinistra verso destra,cioè in orizzontale,quindi quando proverai a crearlo devi giocare con il player 1 alla sinsitra dello schermo):

    2(MCA): 1 posizione a sinistra,1 in su.
    3(DCA): 1 posizione a sinistra,1 in giù.
    4(MCA) : 1 posizione a sinistra,1 in su.
    5(MCA) : 1 posizione a sinistra,1 in giù.
    6(CAR): La posizione deafult resta invariata.
    7(CM): 1 posizione a sinistra.
    8(CAV) : 2 posizioni a destra.
    11(AS): 2 posizioni in su.
    10(CA): 2 posizioni a destra.
    9(AD) : 2 posizioni in giù.

    Diventa cosi:

    --------------1---------------
    -------------------------------
    ------------2----3-------------
    ------4----------------5------
    ------------------------------
    -------------------------------
    --------------6---------------
    -------------------------------
    ----------7-------------------
    -----------------8-------------
    -------------------------------
    --------9-----------11---------
    --------------10----------------
    --------------------------------

    COMPORTAMENTO OFFENSIVO + POSIZIONI:

    ---------------PT(I)---------------
    ------------------------------------
    ----------MCA(I)--MCA(I)--------
    ------MCA(\I)--------MCA(I/)-----
    ------------------------------------
    ------------------------------------
    --------------CAR(\/)-------------
    ------------------------------------
    ---------CM(\/)-------------------
    ------------------CAV(/\)---------
    ------------------------------------
    -------AD(/\)--CA(a)--AS(/\)------
    ------------------------------------

    Legenda:
    I: Indietro.
    a: Avanti.
    n: Nessuna freccia offensiva.
    \: Per mca destro, per Car e Cm: diagonale destro indietro; per Cav, Ad e As: diagonale sinistro in avanti.
    /: Per mca sinistro, per Car e Cm: diagonale sinistro indietro; per Cav,Ad e As: diagonale destro in avanti.

    COMPORTAMENTO DIFENSIVO:
    Portiere,Difensori e car: Freccia Lunga.
    Cm: Freccia normale
    Cav e Attaccanti: Freccia corta.

    LIV ATT./DIF: Manuale
    STRATEGIA DIFESA: Difesa con Libero (Il DCA "3")
    STRATEGIA SQUADRA:Linea arretrata:B;Pressing a Zona:A;Trap.Fuorigioco:B;Contropiede:A.
    IMP.TATTICA: SEMIAUTOMATICHE - 4 Pressing a Zonza.


    ----------------------------------------------------------------

    Dal vostro SACCHIPTAR ( :muahaha ) per ora è tutto! A voi la linea studio:Sm1:
    --------------------------------------------------------------------------------------------------------------------------------------------------------

    SAGIPTAR PALMARES


    MYSPACE.COM/SAGIPTAR



  • OFFLINE
    wmicio1
    Post: 406
    Registered in: 11/12/2004
    Age: 48
    Gender: Male
    Senior User
    00 1/20/2005 11:19 AM
    Io ti ho visto usare un modulo con 4 punte.........

    ma non mi sembra di vederlo tra quelli postati....o mi sbaglio?

    ps: quel modulo mi ha fatto molto, molto male.........ne avevo presi 5:trist
    Chi vola vale.......chi non vola è un vile!!!

  • OFFLINE
    parrino76
    Post: 1,072
    Registered in: 11/18/2003
    Location: PISA
    Age: 45
    Gender: Male
    Veteran User
    00 1/20/2005 3:22 PM
    Grande Sagi appena ho visto questo topic ho provveduto subito a stamarlo...x fortuna la capa non se ne è accorta:veryhappy
    MODERATORE IN :










    Nella vita non sempre si ottiene quello ke si vuole,
    ma a volte ciò ke si ottiene è meglio di quello ke volevamo...



    I MIEI PREMI :






  • OFFLINE
    warsaw666
    Post: 2
    Registered in: 1/15/2005
    Gender: Male
    Junior User
    00 1/20/2005 9:35 PM
    Beh il mio capo l'altro giorno mi ha invece implorato di farlo entrare nel nostro torneo del lunedì... gli ho risposto: "non giochiamo mica a fifa, noi"
    :muahaha
  • OFFLINE
    sagiptar
    Post: 3,635
    Registered in: 3/20/2004
    Location: LECCE
    Age: 39
    Gender: Male
    Master User
    00 1/25/2005 4:25 AM
    Re:

    Scritto da: parrino76 20/01/2005 15.22
    Grande Sagi appena ho visto questo topic ho provveduto subito a stamarlo...x fortuna la capa non se ne è accorta:veryhappy




    :muahaha
    :muahaha
    :muahaha
    :muahaha


    p.s.: per wmicio: non l'ho postato perchè era solo un esperimento che cmq non mi ha soddisfatto,ora gioco con il 4-2-1-3 ma con nuovi settaggi rispetto a quando giocai contro di te.
    Più in là lo posterò:Sm1:
    --------------------------------------------------------------------------------------------------------------------------------------------------------

    SAGIPTAR PALMARES


    MYSPACE.COM/SAGIPTAR



  • OFFLINE
    andrebs
    Post: 7
    Registered in: 9/9/2002
    Gender: Male
    Junior User
    00 1/28/2005 10:47 AM
    3 Domande:

    - Linea Arretrata, come influenza i difensori?
    - Contropiede, cosa cambia nella squadra l'attivazione di questa tattica durante il match?
    - Terzini, ho visto che li hai chiamati entrambi MCA, ne hai cambiato il ruolo per caso?
    Grazie.
  • OFFLINE
    sagiptar
    Post: 3,635
    Registered in: 3/20/2004
    Location: LECCE
    Age: 39
    Gender: Male
    Master User
    00 2/1/2005 2:13 AM
    - linea arretrata implica che la linea dei difensori tendere a stare più indietro del normale con impostazione A, viceversa con impostazione C,normale con b.

    - la tattica contropiede (che applico solo con il modulo a 4 punte) implica che gli attaccanti tenderanno ad arretrar meno in fase difensiva e saranno più pronti/predisposti per avviare un contropiede (pronti allo scatto per intenderci)

    - si ho cambiato posizione,perchè in questo modo i terzini (ora mca) non salgono lasciando scoperta la fascia.
    :Sm1:
    --------------------------------------------------------------------------------------------------------------------------------------------------------

    SAGIPTAR PALMARES


    MYSPACE.COM/SAGIPTAR



  • OFFLINE
    Dj Fabio Sky
    Post: 6
    Registered in: 2/9/2005
    Location: CUSANO MILANINO
    Age: 42
    Gender: Male
    Junior User
    00 2/21/2005 9:57 PM
    Ho bisogno di una delucidazione per favore...IMP.TATTICA: SEMIAUTOMATICHE - 3 Pressing a Zonza + Contropiede...cosa significa? O meglio, quando entro in imp.tattica ho auto1, auto, auto3 e L2...quindi? devo mettere auto1,2,3 su pressing a zona ed L2 su contropiede?
    E poi \: Per Mca destro e Car: diagonale destro indietro...io devo considerare come dx la parte sotto e sx la parte sopra giusto? GRAZIE!!!
  • OFFLINE
    sagiptar
    Post: 3,635
    Registered in: 3/20/2004
    Location: LECCE
    Age: 39
    Gender: Male
    Master User
    00 2/22/2005 12:51 AM
    Ciao fabio,per quanto riguarda le tattiche è esattamente come hai scritto tu (ultimamente cmq preferisco giocare con tattiche tutte impostate su pressing a zona).

    Per quanto riguarda la seconda domanda: in pratica

    \ per dif e car,significa freccia diagonale rivolta verso il proprio calcio d'angolo destro; viceversa per /
    --------------------------------------------------------------------------------------------------------------------------------------------------------

    SAGIPTAR PALMARES


    MYSPACE.COM/SAGIPTAR



  • OFFLINE
    Dj Fabio Sky
    Post: 6
    Registered in: 2/9/2005
    Location: CUSANO MILANINO
    Age: 42
    Gender: Male
    Junior User
    00 2/22/2005 6:46 PM
    ok grazie!!!!:grazie
  • OFFLINE
    sagiptar
    Post: 3,635
    Registered in: 3/20/2004
    Location: LECCE
    Age: 39
    Gender: Male
    Master User
    00 2/23/2005 2:49 AM
    Ecco nel dettaglio la rappresentazione del modulo 4-2-1-3 sopra descritto; a breve posterò anche gli altri moduli.

    --------------------------------------------------------------------------------------------------------------------------------------------------------

    SAGIPTAR PALMARES


    MYSPACE.COM/SAGIPTAR



  • OFFLINE
    bibbifa
    Post: 207
    Registered in: 10/26/2004
    Location: FROSINONE
    Gender: Male
    Junior User
    00 2/23/2005 8:39 AM
    Re:

    Scritto da: sagiptar 23/02/2005 2.49
    Ecco nel dettaglio la rappresentazione del modulo 4-2-1-3 sopra descritto; a breve posterò anche gli altri moduli.




    mi stupisci ogni giorno di piu', grande capitano!
    :muahaha :muahaha :muahaha :muahaha :muahaha :10 :10 :10 :10 :wlafig :wlafig :wlafig
    OFFICIAL ITALIAN TOURNAMENTS

    AMMINISTRATORE OIT
  • OFFLINE
    elminster9
    Post: 356
    Registered in: 12/7/2004
    Location: RIMINI
    Age: 41
    Gender: Male
    Senior User
    00 2/23/2005 9:29 AM
    ...non ci credo....
    sei un grande!!!!!!:bravo

    Elminster Aumar principe di Atalanthar


  • OFFLINE
    sagiptar
    Post: 3,635
    Registered in: 3/20/2004
    Location: LECCE
    Age: 39
    Gender: Male
    Master User
    00 3/2/2005 4:25 AM
    x samsung:

    Ecco il modulo [SM=x597995]
    --------------------------------------------------------------------------------------------------------------------------------------------------------

    SAGIPTAR PALMARES


    MYSPACE.COM/SAGIPTAR



  • OFFLINE
    sacchiptar
    Post: 42
    Registered in: 3/2/2005
    Age: 37
    Gender: Male
    Junior User
    00 3/2/2005 2:32 PM
    x rotella: ecco il modulo per la roma[SM=x597995]
    sagiptar
1